15:38 

Allen's song. Табулатура.

люк я твой крестец
Как и обещала. Вот оно, монофоническое подобие колыбельной на одной струне. х)
В общем, струну можно выбрать любую - там везде подходит, только тональность будет разной, но я выбрала третью. Звучит более правдоподобно.
Подбирала сама, на слух. Гитарист начинающий, так что оплошности, наверное, есть. Но мелодия проигрывается четко, со словами совпадает.
Табулатуру составляла впервые, но, думаю, там всё понятно.
Надеюсь, кому-нибудь пригодится.



Soushite bouya wa nemuri ni tsuita
-------------------------------------------
-------------------------------------------
--0-2-3--7---5---3-2-0-2-3-2-0-2-0--
-------------------------------------------
-------------------------------------------
-------------------------------------------


Ikidzuku hai no naka no honou
-------------------------------------------
-------------------------------------------
--7-7-7-7--3-5-7--5-7-10-9-7-7-------
-------------------------------------------
-------------------------------------------


Hitotsu Futatsu to
------------------------------------
------------------------------------
--3-7-5---3-7-5--2-------------
------------------------------------
------------------------------------



Ukabu fukurami itoshii yokogao
-------------------------------------------
-------------------------------------------
--0-2-3--7---5---3-2-0-2-3-2-0-2-0--
-------------------------------------------
-------------------------------------------


Daichi ni taruru ikusen no
-------------------------------------------
-------------------------------------------
--7-7-7-7---3-5-7--5-7-10-9-7-7-------
-------------------------------------------
-------------------------------------------


Yume Yume
------------------------------------
------------------------------------
--3-7-5---3-7-5--10-------------
------------------------------------
------------------------------------


Gin no hitomi no yuragu yoru ni
-----------------------------------------
-----------------------------------------
--10--10-7-9-10--9-10-9-7-5-0-----
-----------------------------------------
-----------------------------------------


Umare ochita kagayaku omae
--------------------------------------------
---------------------------------------------
--10-10-10-7-9-10--9-10-9-7-5-7-9---
---------------------------------------------
---------------------------------------------


Ikuoku no toshitsuki ga
------------------------------------
------------------------------------
--8-8-8-5-7-8----7-8-7-5-3----
------------------------------------
------------------------------------


Ikutsu Inori wo
------------------------------------
------------------------------------
--5-7-5------5-7-5-5-------------
------------------------------------
------------------------------------


Tsuchi he kaeshitemo
------------------------------------
------------------------------------
--5-7-8-8-7-7-5--4--------------
------------------------------------
------------------------------------


WATASHI wa inori tsudzukeru
------------------------------------
------------------------------------
--0-2-3--7--5-5-10--8-7-5-7---
------------------------------------
------------------------------------


Dou ka kono ko ni ai wo
------------------------------------
------------------------------------
--0-2-3--7--5-3-2-3-2-0--------
------------------------------------
------------------------------------


Tsunaida te ni KISU wo
----------------------------------------
----------------------------------------
--0-2-3--7--5-5-10--12-10-12-----
----------------------------------------
----------------------------------------


URL
Комментарии
2012-05-06 в 05:48 

Sai Tay
Спасибо Вам большое. Попробовала наиграть, очень похоже))
Можно стащить, ибо очень понравилось??)

2012-05-06 в 10:19 

.северный
люк я твой крестец
Санни Тян, конечно) есть еще аккорды)

URL
2012-05-06 в 17:20 

Sai Tay
Ага, я уже нашла)
Вы, наверное, давно играете, что подбираете сами?)

2012-05-06 в 17:50 

.северный
люк я твой крестец
Санни Тян, ну, не совсем, не больше 3х лет) играю мало. могу гитару неделями в руки не брать, а могу и засесть - все от настроения. а на слух подбирается как-то само собой :3

URL
2012-05-06 в 18:17 

Sai Tay
Это здорово)

2012-05-06 в 18:24 

.северный
люк я твой крестец
Санни Тян, :3 благодарю

URL
     

пидорлэнд

главная